ISO-10303-21;
HEADER;
FILE_DESCRIPTION (( 'STEP AP203' ),
    '1' );
FILE_NAME ('BK7-LPBSC-10-532.STEP',
    '2020-12-22T03:10:13',
    ( '' ),
    ( '' ),
    'SwSTEP 2.0',
    'SolidWorks 2020',
    '' );
FILE_SCHEMA (( 'CONFIG_CONTROL_DESIGN' ));
ENDSEC;

DATA;
#1 = CLOSED_SHELL ( 'NONE', ( #36, #248, #234, #3, #14 ) ) ;
#2 = CARTESIAN_POINT ( 'NONE',  ( -5.000000000000000888, -4.999999999999998224, 5.000000000000000000 ) ) ;
#3 = ADVANCED_FACE ( 'NONE', ( #235 ), #7, .T. ) ;
#4 = ORIENTED_EDGE ( 'NONE', *, *, #159, .T. ) ;
#5 = DATE_AND_TIME ( #194, #112 ) ;
#6 = DIRECTION ( 'NONE',  ( 1.000000000000000000, -2.220446049250313081E-16, 0.000000000000000000 ) ) ;
#7 = PLANE ( 'NONE',  #88 ) ;
#8 = VERTEX_POINT ( 'NONE', #300 ) ;
#9 = VECTOR ( 'NONE', #243, 1000.000000000000000 ) ;
#10 = ORIENTED_EDGE ( 'NONE', *, *, #159, .F. ) ;
#11 = VECTOR ( 'NONE', #103, 1000.000000000000000 ) ;
#12 = MANIFOLD_SOLID_BREP ( 'Í¹Ì¨-À', #1 ) ;
#13 = CARTESIAN_POINT ( 'NONE',  ( 5.000000000000000888, 5.000000000000001776, 5.000000000000000000 ) ) ;
#14 = ADVANCED_FACE ( 'NONE', ( #182 ), #109, .F. ) ;
#15 = CARTESIAN_POINT ( 'NONE',  ( 0.000000000000000000, 0.000000000000000000, 5.000000000000000000 ) ) ;
#16 = CC_DESIGN_PERSON_AND_ORGANIZATION_ASSIGNMENT ( #301, #299, ( #304 ) ) ;
#17 = FACE_OUTER_BOUND ( 'NONE', #154, .T. ) ;
#18 = CARTESIAN_POINT ( 'NONE',  ( 0.000000000000000000, 0.000000000000000000, -5.000000000000000000 ) ) ;
#19 = CARTESIAN_POINT ( 'NONE',  ( 5.000000000000002665, 5.000000000000000000, -5.000000000000000000 ) ) ;
#20 =( LENGTH_UNIT ( ) NAMED_UNIT ( * ) SI_UNIT ( .MILLI., .METRE. ) );
#21 = ORIENTED_EDGE ( 'NONE', *, *, #113, .T. ) ;
#22 = APPROVAL_DATE_TIME ( #126, #132 ) ;
#23 = EDGE_CURVE ( 'NONE', #252, #30, #303, .T. ) ;
#24 = CARTESIAN_POINT ( 'NONE',  ( -4.999999999999999112, -5.000000000000000000, -5.000000000000000000 ) ) ;
#25 = VERTEX_POINT ( 'NONE', #297 ) ;
#26 = SECURITY_CLASSIFICATION_LEVEL ( 'unclassified' ) ;
#27 = CARTESIAN_POINT ( 'NONE',  ( 5.000000000000000888, -5.000000000000000000, 5.000000000000000000 ) ) ;
#28 = LINE ( 'NONE', #131, #54 ) ;
#29 = APPROVAL_PERSON_ORGANIZATION ( #318, #196, #230 ) ;
#30 = VERTEX_POINT ( 'NONE', #208 ) ;
#31 = ORIENTED_EDGE ( 'NONE', *, *, #142, .T. ) ;
#32 = APPLICATION_CONTEXT ( 'configuration controlled 3d designs of mechanical parts and assemblies' ) ;
#33 = VECTOR ( 'NONE', #35, 1000.000000000000000 ) ;
#34 = ORIENTED_EDGE ( 'NONE', *, *, #142, .F. ) ;
#35 = DIRECTION ( 'NONE',  ( -0.000000000000000000, 0.000000000000000000, -1.000000000000000000 ) ) ;
#36 = ADVANCED_FACE ( 'NONE', ( #84 ), #276, .F. ) ;
#37 = LINE ( 'NONE', #307, #222 ) ;
#38 = APPROVAL ( #201, 'UNSPECIFIED' ) ;
#39 = CARTESIAN_POINT ( 'NONE',  ( 5.000000000000000888, 5.000000000000001776, -5.000000000000000000 ) ) ;
#40 = AXIS2_PLACEMENT_3D ( 'NONE', #15, #115, #216 ) ;
#41 = LINE ( 'NONE', #149, #274 ) ;
#42 = LINE ( 'NONE', #97, #298 ) ;
#43 = CALENDAR_DATE ( 2020, 22, 12 ) ;
#44 =( NAMED_UNIT ( * ) SI_UNIT ( $, .STERADIAN. ) SOLID_ANGLE_UNIT ( ) );
#45 = APPROVAL_ROLE ( '' ) ;
#46 = APPROVAL_PERSON_ORGANIZATION ( #180, #38, #45 ) ;
#47 = ORIENTED_EDGE ( 'NONE', *, *, #238, .F. ) ;
#48 = PERSON_AND_ORGANIZATION ( #237, #308 ) ;
#49 = DIRECTION ( 'NONE',  ( -1.000000000000000000, 1.734723475976807094E-16, 0.000000000000000000 ) ) ;
#50 = ORIENTED_EDGE ( 'NONE', *, *, #99, .T. ) ;
#51 = APPROVAL_ROLE ( '' ) ;
#52 = DIRECTION ( 'NONE',  ( 0.7071067811865475727, 0.7071067811865474617, 0.000000000000000000 ) ) ;
#53 = COORDINATED_UNIVERSAL_TIME_OFFSET ( 8, 0, .AHEAD. ) ;
#54 = VECTOR ( 'NONE', #279, 1000.000000000000000 ) ;
#55 = EDGE_CURVE ( 'NONE', #233, #176, #28, .T. ) ;
#56 = LINE ( 'NONE', #185, #315 ) ;
#57 = VECTOR ( 'NONE', #247, 1000.000000000000000 ) ;
#58 = EDGE_CURVE ( 'NONE', #239, #233, #56, .T. ) ;
#59 = LINE ( 'NONE', #69, #33 ) ;
#60 = EDGE_LOOP ( 'NONE', ( #107, #34, #165, #77 ) ) ;
#61 = LOCAL_TIME ( 11, 10, 13.00000000000000000, #98 ) ;
#62 = ORIENTED_EDGE ( 'NONE', *, *, #113, .F. ) ;
#63 = EDGE_CURVE ( 'NONE', #273, #176, #59, .T. ) ;
#64 = LOCAL_TIME ( 11, 10, 13.00000000000000000, #73 ) ;
#65 = APPLICATION_CONTEXT ( 'configuration controlled 3d designs of mechanical parts and assemblies' ) ;
#66 = LINE ( 'NONE', #150, #57 ) ;
#67 = CC_DESIGN_DATE_AND_TIME_ASSIGNMENT ( #314, #249, ( #304 ) ) ;
#68 = PLANE ( 'NONE',  #261 ) ;
#69 = CARTESIAN_POINT ( 'NONE',  ( 5.000000000000000888, 5.000000000000001776, 5.000000000000000000 ) ) ;
#70 = EDGE_CURVE ( 'NONE', #85, #273, #287, .T. ) ;
#71 = CC_DESIGN_SECURITY_CLASSIFICATION ( #283, ( #240 ) ) ;
#72 = DIRECTION ( 'NONE',  ( -1.000000000000000000, 4.857225732735059864E-17, 0.000000000000000000 ) ) ;
#73 = COORDINATED_UNIVERSAL_TIME_OFFSET ( 8, 0, .AHEAD. ) ;
#74 = CARTESIAN_POINT ( 'NONE',  ( -4.999999999999999112, -5.000000000000000000, 5.000000000000000000 ) ) ;
#75 = DATE_TIME_ROLE ( 'classification_date' ) ;
#76 = DIRECTION ( 'NONE',  ( 0.000000000000000000, 0.000000000000000000, 1.000000000000000000 ) ) ;
#77 = ORIENTED_EDGE ( 'NONE', *, *, #86, .T. ) ;
#78 = CARTESIAN_POINT ( 'NONE',  ( -4.999999999999999112, -5.000000000000000000, 5.000000000000000000 ) ) ;
#79 = ORIENTED_EDGE ( 'NONE', *, *, #23, .T. ) ;
#80 = LINE ( 'NONE', #178, #231 ) ;
#81 = ORIENTED_EDGE ( 'NONE', *, *, #188, .F. ) ;
#82 = DIRECTION ( 'NONE',  ( -0.000000000000000000, 0.000000000000000000, 1.000000000000000000 ) ) ;
#83 = VECTOR ( 'NONE', #173, 1000.000000000000000 ) ;
#84 = FACE_OUTER_BOUND ( 'NONE', #60, .T. ) ;
#85 = VERTEX_POINT ( 'NONE', #191 ) ;
#86 = EDGE_CURVE ( 'NONE', #25, #30, #41, .T. ) ;
#87 = AXIS2_PLACEMENT_3D ( 'NONE', #78, #105, #277 ) ;
#88 = AXIS2_PLACEMENT_3D ( 'NONE', #207, #82, #226 ) ;
#89 = DIRECTION ( 'NONE',  ( -0.000000000000000000, 0.000000000000000000, -1.000000000000000000 ) ) ;
#90 = VECTOR ( 'NONE', #169, 1000.000000000000000 ) ;
#91 = DIRECTION ( 'NONE',  ( 0.7071067811865475727, 0.7071067811865474617, 0.000000000000000000 ) ) ;
#92 = DIRECTION ( 'NONE',  ( 2.220446049250313081E-16, 1.000000000000000000, 0.000000000000000000 ) ) ;
#93 = DIRECTION ( 'NONE',  ( -0.000000000000000000, -0.000000000000000000, -1.000000000000000000 ) ) ;
#94 = AXIS2_PLACEMENT_3D ( 'NONE', #209, #321, #108 ) ;
#95 = CALENDAR_DATE ( 2020, 22, 12 ) ;
#96 = VECTOR ( 'NONE', #264, 1000.000000000000000 ) ;
#97 = CARTESIAN_POINT ( 'NONE',  ( 5.000000000000002665, 5.000000000000000000, 5.000000000000000000 ) ) ;
#98 = COORDINATED_UNIVERSAL_TIME_OFFSET ( 8, 0, .AHEAD. ) ;
#99 = EDGE_CURVE ( 'NONE', #256, #252, #218, .T. ) ;
#100 = DIRECTION ( 'NONE',  ( 0.000000000000000000, 0.000000000000000000, 1.000000000000000000 ) ) ;
#101 = ORIENTED_EDGE ( 'NONE', *, *, #188, .T. ) ;
#102 = CC_DESIGN_PERSON_AND_ORGANIZATION_ASSIGNMENT ( #294, #220, ( #240 ) ) ;
#103 = DIRECTION ( 'NONE',  ( 1.734723475976807094E-16, 1.000000000000000000, -0.000000000000000000 ) ) ;
#104 = PERSON_AND_ORGANIZATION_ROLE ( 'design_owner' ) ;
#105 = DIRECTION ( 'NONE',  ( 0.000000000000000000, 1.000000000000000000, 0.000000000000000000 ) ) ;
#106 = CC_DESIGN_APPROVAL ( #38, ( #240 ) ) ;
#107 = ORIENTED_EDGE ( 'NONE', *, *, #116, .T. ) ;
#108 = DIRECTION ( 'NONE',  ( 1.000000000000000000, 0.000000000000000000, 0.000000000000000000 ) ) ;
#109 = PLANE ( 'NONE',  #94 ) ;
#110 = ORIENTED_EDGE ( 'NONE', *, *, #58, .T. ) ;
#111 = ORIENTED_EDGE ( 'NONE', *, *, #58, .F. ) ;
#112 = LOCAL_TIME ( 11, 10, 13.00000000000000000, #292 ) ;
#113 = EDGE_CURVE ( 'NONE', #157, #85, #117, .T. ) ;
#114 = CARTESIAN_POINT ( 'NONE',  ( -5.000000000000000888, -4.999999999999998224, 5.000000000000000000 ) ) ;
#115 = DIRECTION ( 'NONE',  ( 0.000000000000000000, -0.000000000000000000, 1.000000000000000000 ) ) ;
#116 = EDGE_CURVE ( 'NONE', #30, #258, #219, .T. ) ;
#117 = LINE ( 'NONE', #119, #83 ) ;
#118 = MANIFOLD_SOLID_BREP ( '¾µÏ', #136 ) ;
#119 = CARTESIAN_POINT ( 'NONE',  ( -5.000000000000000888, -4.999999999999998224, 5.000000000000000000 ) ) ;
#120 = DIRECTION ( 'NONE',  ( -0.000000000000000000, -0.000000000000000000, -1.000000000000000000 ) ) ;
#121 = AXIS2_PLACEMENT_3D ( 'NONE', #302, #183, #52 ) ;
#122 = CC_DESIGN_APPROVAL ( #196, ( #283 ) ) ;
#123 = PLANE ( 'NONE',  #87 ) ;
#124 = DIRECTION ( 'NONE',  ( -0.000000000000000000, 0.000000000000000000, -1.000000000000000000 ) ) ;
#125 = ORIENTED_EDGE ( 'NONE', *, *, #70, .T. ) ;
#126 = DATE_AND_TIME ( #95, #61 ) ;
#127 = CARTESIAN_POINT ( 'NONE',  ( 5.000000000000000888, 5.000000000000001776, 5.000000000000000000 ) ) ;
#128 = ORIENTED_EDGE ( 'NONE', *, *, #23, .F. ) ;
#129 = UNCERTAINTY_MEASURE_WITH_UNIT (LENGTH_MEASURE( 1.000000000000000082E-05 ), #20, 'distance_accuracy_value', 'NONE');
#130 = APPROVAL_STATUS ( 'not_yet_approved' ) ;
#131 = CARTESIAN_POINT ( 'NONE',  ( 5.000000000000000888, 5.000000000000001776, -5.000000000000000000 ) ) ;
#132 = APPROVAL ( #223, 'UNSPECIFIED' ) ;
#133 = ORIENTED_EDGE ( 'NONE', *, *, #99, .F. ) ;
#134 = ORIENTED_EDGE ( 'NONE', *, *, #55, .F. ) ;
#135 = ADVANCED_FACE ( 'NONE', ( #288 ), #171, .F. ) ;
#136 = CLOSED_SHELL ( 'NONE', ( #139, #281, #145, #212, #135 ) ) ;
#137 = AXIS2_PLACEMENT_3D ( 'NONE', #320, #100, #199 ) ;
#138 = ORIENTED_EDGE ( 'NONE', *, *, #166, .T. ) ;
#139 = ADVANCED_FACE ( 'NONE', ( #312 ), #193, .F. ) ;
#140 = ORIENTED_EDGE ( 'NONE', *, *, #63, .T. ) ;
#141 = EDGE_LOOP ( 'NONE', ( #111, #254, #21, #179 ) ) ;
#142 = EDGE_CURVE ( 'NONE', #8, #258, #290, .T. ) ;
#143 = LINE ( 'NONE', #13, #317 ) ;
#144 = PLANE ( 'NONE',  #40 ) ;
#145 = ADVANCED_FACE ( 'NONE', ( #266 ), #310, .F. ) ;
#146 = LINE ( 'NONE', #221, #291 ) ;
#147 = LOCAL_TIME ( 11, 10, 13.00000000000000000, #53 ) ;
#148 = CC_DESIGN_DATE_AND_TIME_ASSIGNMENT ( #155, #75, ( #283 ) ) ;
#149 = CARTESIAN_POINT ( 'NONE',  ( 5.000000000000002665, 5.000000000000000000, 5.000000000000000000 ) ) ;
#150 = CARTESIAN_POINT ( 'NONE',  ( 5.000000000000002665, 5.000000000000000000, 5.000000000000000000 ) ) ;
#151 = APPROVAL_DATE_TIME ( #5, #196 ) ;
#152 = APPLICATION_PROTOCOL_DEFINITION ( 'international standard', 'config_control_design', 1994, #32 ) ;
#153 = SHAPE_DEFINITION_REPRESENTATION ( #284, #263 ) ;
#154 = EDGE_LOOP ( 'NONE', ( #79, #161, #10, #50 ) ) ;
#155 = DATE_AND_TIME ( #270, #64 ) ;
#156 = CARTESIAN_POINT ( 'NONE',  ( 5.000000000000000888, -5.000000000000000000, -5.000000000000000000 ) ) ;
#157 = VERTEX_POINT ( 'NONE', #114 ) ;
#158 = APPROVAL_DATE_TIME ( #227, #38 ) ;
#159 = EDGE_CURVE ( 'NONE', #256, #25, #42, .T. ) ;
#160 = DIRECTION ( 'NONE',  ( 1.000000000000000000, 0.000000000000000000, 0.000000000000000000 ) ) ;
#161 = ORIENTED_EDGE ( 'NONE', *, *, #86, .F. ) ;
#162 = CALENDAR_DATE ( 2020, 22, 12 ) ;
#163 = EDGE_CURVE ( 'NONE', #25, #8, #66, .T. ) ;
#164 = ORIENTED_EDGE ( 'NONE', *, *, #184, .F. ) ;
#165 = ORIENTED_EDGE ( 'NONE', *, *, #163, .F. ) ;
#166 = EDGE_CURVE ( 'NONE', #176, #239, #146, .T. ) ;
#167 = ORIENTED_EDGE ( 'NONE', *, *, #63, .F. ) ;
#168 = EDGE_LOOP ( 'NONE', ( #138, #110, #211 ) ) ;
#169 = DIRECTION ( 'NONE',  ( -0.000000000000000000, -0.000000000000000000, -1.000000000000000000 ) ) ;
#170 = DIRECTION ( 'NONE',  ( 1.000000000000000000, -4.857225732735059864E-17, 0.000000000000000000 ) ) ;
#171 = PLANE ( 'NONE',  #286 ) ;
#172 = LOCAL_TIME ( 11, 10, 13.00000000000000000, #198 ) ;
#173 = DIRECTION ( 'NONE',  ( 2.220446049250313081E-16, 1.000000000000000000, 0.000000000000000000 ) ) ;
#174 = PERSON_AND_ORGANIZATION ( #237, #308 ) ;
#175 =( NAMED_UNIT ( * ) PLANE_ANGLE_UNIT ( ) SI_UNIT ( $, .RADIAN. ) );
#176 = VERTEX_POINT ( 'NONE', #39 ) ;
#177 = CC_DESIGN_APPROVAL ( #132, ( #304 ) ) ;
#178 = CARTESIAN_POINT ( 'NONE',  ( -4.999999999999999112, -5.000000000000000000, -5.000000000000000000 ) ) ;
#179 = ORIENTED_EDGE ( 'NONE', *, *, #311, .T. ) ;
#180 = PERSON_AND_ORGANIZATION ( #237, #308 ) ;
#181 = CARTESIAN_POINT ( 'NONE',  ( 5.000000000000002665, 5.000000000000000000, 5.000000000000000000 ) ) ;
#182 = FACE_OUTER_BOUND ( 'NONE', #255, .T. ) ;
#183 = DIRECTION ( 'NONE',  ( 0.7071067811865474617, -0.7071067811865475727, 0.000000000000000000 ) ) ;
#184 = EDGE_CURVE ( 'NONE', #8, #256, #197, .T. ) ;
#185 = CARTESIAN_POINT ( 'NONE',  ( -5.000000000000000888, -4.999999999999998224, -5.000000000000000000 ) ) ;
#186 = AXIS2_PLACEMENT_3D ( 'NONE', #241, #269, #72 ) ;
#187 = EDGE_LOOP ( 'NONE', ( #81, #250, #62 ) ) ;
#188 = EDGE_CURVE ( 'NONE', #273, #157, #143, .T. ) ;
#189 = EDGE_CURVE ( 'NONE', #157, #239, #37, .T. ) ;
#190 = FACE_OUTER_BOUND ( 'NONE', #187, .T. ) ;
#191 = CARTESIAN_POINT ( 'NONE',  ( -4.999999999999999112, 5.000000000000001776, 5.000000000000000000 ) ) ;
#192 = CARTESIAN_POINT ( 'NONE',  ( -4.999999999999999112, -5.000000000000000000, 5.000000000000000000 ) ) ;
#193 = PLANE ( 'NONE',  #217 ) ;
#194 = CALENDAR_DATE ( 2020, 22, 12 ) ;
#195 = VECTOR ( 'NONE', #93, 1000.000000000000000 ) ;
#196 = APPROVAL ( #130, 'UNSPECIFIED' ) ;
#197 = LINE ( 'NONE', #74, #9 ) ;
#198 = COORDINATED_UNIVERSAL_TIME_OFFSET ( 8, 0, .AHEAD. ) ;
#199 = DIRECTION ( 'NONE',  ( 1.000000000000000000, 0.000000000000000000, 0.000000000000000000 ) ) ;
#200 = EDGE_LOOP ( 'NONE', ( #257, #282, #4 ) ) ;
#201 = APPROVAL_STATUS ( 'not_yet_approved' ) ;
#202 = PERSON_AND_ORGANIZATION ( #237, #308 ) ;
#203 = CARTESIAN_POINT ( 'NONE',  ( 5.000000000000002665, 5.000000000000000000, -5.000000000000000000 ) ) ;
#204 = PERSON_AND_ORGANIZATION ( #237, #308 ) ;
#205 = VECTOR ( 'NONE', #124, 1000.000000000000000 ) ;
#206 = LINE ( 'NONE', #271, #205 ) ;
#207 = CARTESIAN_POINT ( 'NONE',  ( 0.000000000000000000, 0.000000000000000000, 5.000000000000000000 ) ) ;
#208 = CARTESIAN_POINT ( 'NONE',  ( 5.000000000000002665, 5.000000000000000000, -5.000000000000000000 ) ) ;
#209 = CARTESIAN_POINT ( 'NONE',  ( 0.000000000000000000, 0.000000000000000000, -5.000000000000000000 ) ) ;
#210 = APPROVAL_PERSON_ORGANIZATION ( #204, #132, #51 ) ;
#211 = ORIENTED_EDGE ( 'NONE', *, *, #55, .T. ) ;
#212 = ADVANCED_FACE ( 'NONE', ( #190 ), #144, .T. ) ;
#213 = VECTOR ( 'NONE', #170, 1000.000000000000000 ) ;
#214 = DIRECTION ( 'NONE',  ( -0.7071067811865475727, -0.7071067811865474617, 0.000000000000000000 ) ) ;
#215 = CC_DESIGN_PERSON_AND_ORGANIZATION_ASSIGNMENT ( #48, #272, ( #283 ) ) ;
#216 = DIRECTION ( 'NONE',  ( 2.220446049250313081E-16, 1.000000000000000000, 0.000000000000000000 ) ) ;
#217 = AXIS2_PLACEMENT_3D ( 'NONE', #262, #244, #91 ) ;
#218 = LINE ( 'NONE', #246, #195 ) ;
#219 = LINE ( 'NONE', #19, #96 ) ;
#220 = PERSON_AND_ORGANIZATION_ROLE ( 'creator' ) ;
#221 = CARTESIAN_POINT ( 'NONE',  ( 5.000000000000000888, 5.000000000000001776, -5.000000000000000000 ) ) ;
#222 = VECTOR ( 'NONE', #89, 1000.000000000000000 ) ;
#223 = APPROVAL_STATUS ( 'not_yet_approved' ) ;
#224 = PERSON_AND_ORGANIZATION_ROLE ( 'design_supplier' ) ;
#225 = MECHANICAL_CONTEXT ( 'NONE', #32, 'mechanical' ) ;
#226 = DIRECTION ( 'NONE',  ( 1.000000000000000000, 0.000000000000000000, 0.000000000000000000 ) ) ;
#227 = DATE_AND_TIME ( #162, #172 ) ;
#228 = PLANE ( 'NONE',  #268 ) ;
#229 = EDGE_LOOP ( 'NONE', ( #259, #167, #101, #296 ) ) ;
#230 = APPROVAL_ROLE ( '' ) ;
#231 = VECTOR ( 'NONE', #160, 1000.000000000000000 ) ;
#232 = FACE_OUTER_BOUND ( 'NONE', #141, .T. ) ;
#233 = VERTEX_POINT ( 'NONE', #309 ) ;
#234 = ADVANCED_FACE ( 'NONE', ( #17 ), #68, .F. ) ;
#235 = FACE_OUTER_BOUND ( 'NONE', #200, .T. ) ;
#236 = ORIENTED_EDGE ( 'NONE', *, *, #311, .F. ) ;
#237 = PERSON ( 'UNSPECIFIED', 'UNSPECIFIED', 'UNSPECIFIED', ('UNSPECIFIED'), ('UNSPECIFIED'), ('UNSPECIFIED') ) ;
#238 = EDGE_CURVE ( 'NONE', #258, #252, #80, .T. ) ;
#239 = VERTEX_POINT ( 'NONE', #275 ) ;
#240 = PRODUCT_DEFINITION_FORMATION_WITH_SPECIFIED_SOURCE ( 'ANY', '', #265, .NOT_KNOWN. ) ;
#241 = CARTESIAN_POINT ( 'NONE',  ( 5.000000000000000888, 5.000000000000001776, 5.000000000000000000 ) ) ;
#242 = CC_DESIGN_PERSON_AND_ORGANIZATION_ASSIGNMENT ( #202, #104, ( #265 ) ) ;
#243 = DIRECTION ( 'NONE',  ( 1.000000000000000000, 0.000000000000000000, 0.000000000000000000 ) ) ;
#244 = DIRECTION ( 'NONE',  ( -0.7071067811865474617, 0.7071067811865475727, 0.000000000000000000 ) ) ;
#245 =( GEOMETRIC_REPRESENTATION_CONTEXT ( 3 ) GLOBAL_UNCERTAINTY_ASSIGNED_CONTEXT ( ( #129 ) ) GLOBAL_UNIT_ASSIGNED_CONTEXT ( ( #20, #175, #44 ) ) REPRESENTATION_CONTEXT ( 'NONE', 'WORKASPACE' ) );
#246 = CARTESIAN_POINT ( 'NONE',  ( 5.000000000000000888, -5.000000000000000000, 5.000000000000000000 ) ) ;
#247 = DIRECTION ( 'NONE',  ( -0.7071067811865475727, -0.7071067811865474617, 0.000000000000000000 ) ) ;
#248 = ADVANCED_FACE ( 'NONE', ( #295 ), #123, .F. ) ;
#249 = DATE_TIME_ROLE ( 'creation_date' ) ;
#250 = ORIENTED_EDGE ( 'NONE', *, *, #70, .F. ) ;
#251 = DIRECTION ( 'NONE',  ( -1.734723475976807094E-16, -1.000000000000000000, 0.000000000000000000 ) ) ;
#252 = VERTEX_POINT ( 'NONE', #156 ) ;
#253 = APPLICATION_PROTOCOL_DEFINITION ( 'international standard', 'config_control_design', 1994, #65 ) ;
#254 = ORIENTED_EDGE ( 'NONE', *, *, #189, .F. ) ;
#255 = EDGE_LOOP ( 'NONE', ( #260, #128, #47 ) ) ;
#256 = VERTEX_POINT ( 'NONE', #27 ) ;
#257 = ORIENTED_EDGE ( 'NONE', *, *, #163, .T. ) ;
#258 = VERTEX_POINT ( 'NONE', #24 ) ;
#259 = ORIENTED_EDGE ( 'NONE', *, *, #166, .F. ) ;
#260 = ORIENTED_EDGE ( 'NONE', *, *, #116, .F. ) ;
#261 = AXIS2_PLACEMENT_3D ( 'NONE', #181, #49, #251 ) ;
#262 = CARTESIAN_POINT ( 'NONE',  ( 5.000000000000000888, 5.000000000000001776, 5.000000000000000000 ) ) ;
#263 = ADVANCED_BREP_SHAPE_REPRESENTATION ( 'BK7-LPBSC-10-532', ( #12, #118, #137 ), #245 ) ;
#264 = DIRECTION ( 'NONE',  ( -0.7071067811865475727, -0.7071067811865474617, 0.000000000000000000 ) ) ;
#265 = PRODUCT ( 'BK7-LPBSC-10-532', 'BK7-LPBSC-10-532', '', ( #225 ) ) ;
#266 = FACE_OUTER_BOUND ( 'NONE', #285, .T. ) ;
#267 = CARTESIAN_POINT ( 'NONE',  ( 5.000000000000000888, 5.000000000000001776, 5.000000000000000000 ) ) ;
#268 = AXIS2_PLACEMENT_3D ( 'NONE', #2, #6, #76 ) ;
#269 = DIRECTION ( 'NONE',  ( -4.857225732735059864E-17, -1.000000000000000000, 0.000000000000000000 ) ) ;
#270 = CALENDAR_DATE ( 2020, 22, 12 ) ;
#271 = CARTESIAN_POINT ( 'NONE',  ( -4.999999999999999112, 5.000000000000001776, 5.000000000000000000 ) ) ;
#272 = PERSON_AND_ORGANIZATION_ROLE ( 'classification_officer' ) ;
#273 = VERTEX_POINT ( 'NONE', #127 ) ;
#274 = VECTOR ( 'NONE', #120, 1000.000000000000000 ) ;
#275 = CARTESIAN_POINT ( 'NONE',  ( -5.000000000000000888, -4.999999999999998224, -5.000000000000000000 ) ) ;
#276 = PLANE ( 'NONE',  #121 ) ;
#277 = DIRECTION ( 'NONE',  ( 0.000000000000000000, -0.000000000000000000, 1.000000000000000000 ) ) ;
#278 = EDGE_LOOP ( 'NONE', ( #305, #133, #164, #31 ) ) ;
#279 = DIRECTION ( 'NONE',  ( 1.000000000000000000, -4.857225732735059864E-17, 0.000000000000000000 ) ) ;
#280 = DIRECTION ( 'NONE',  ( 2.220446049250313081E-16, 1.000000000000000000, 0.000000000000000000 ) ) ;
#281 = ADVANCED_FACE ( 'NONE', ( #232 ), #228, .F. ) ;
#282 = ORIENTED_EDGE ( 'NONE', *, *, #184, .T. ) ;
#283 = SECURITY_CLASSIFICATION ( '', '', #26 ) ;
#284 = PRODUCT_DEFINITION_SHAPE ( 'NONE', 'NONE',  #304 ) ;
#285 = EDGE_LOOP ( 'NONE', ( #134, #236, #125, #140 ) ) ;
#286 = AXIS2_PLACEMENT_3D ( 'NONE', #18, #293, #92 ) ;
#287 = LINE ( 'NONE', #267, #213 ) ;
#288 = FACE_OUTER_BOUND ( 'NONE', #168, .T. ) ;
#289 = DIRECTION ( 'NONE',  ( 1.734723475976807094E-16, 1.000000000000000000, -0.000000000000000000 ) ) ;
#290 = LINE ( 'NONE', #192, #90 ) ;
#291 = VECTOR ( 'NONE', #316, 1000.000000000000000 ) ;
#292 = COORDINATED_UNIVERSAL_TIME_OFFSET ( 8, 0, .AHEAD. ) ;
#293 = DIRECTION ( 'NONE',  ( 0.000000000000000000, -0.000000000000000000, 1.000000000000000000 ) ) ;
#294 = PERSON_AND_ORGANIZATION ( #237, #308 ) ;
#295 = FACE_OUTER_BOUND ( 'NONE', #278, .T. ) ;
#296 = ORIENTED_EDGE ( 'NONE', *, *, #189, .T. ) ;
#297 = CARTESIAN_POINT ( 'NONE',  ( 5.000000000000002665, 5.000000000000000000, 5.000000000000000000 ) ) ;
#298 = VECTOR ( 'NONE', #289, 1000.000000000000000 ) ;
#299 = PERSON_AND_ORGANIZATION_ROLE ( 'creator' ) ;
#300 = CARTESIAN_POINT ( 'NONE',  ( -4.999999999999999112, -5.000000000000000000, 5.000000000000000000 ) ) ;
#301 = PERSON_AND_ORGANIZATION ( #237, #308 ) ;
#302 = CARTESIAN_POINT ( 'NONE',  ( 5.000000000000002665, 5.000000000000000000, 5.000000000000000000 ) ) ;
#303 = LINE ( 'NONE', #203, #11 ) ;
#304 = PRODUCT_DEFINITION ( 'UNKNOWN', '', #240, #313 ) ;
#305 = ORIENTED_EDGE ( 'NONE', *, *, #238, .T. ) ;
#306 = PRODUCT_RELATED_PRODUCT_CATEGORY ( 'detail', '', ( #265 ) ) ;
#307 = CARTESIAN_POINT ( 'NONE',  ( -5.000000000000000888, -4.999999999999998224, 5.000000000000000000 ) ) ;
#308 = ORGANIZATION ( 'UNSPECIFIED', 'UNSPECIFIED', '' ) ;
#309 = CARTESIAN_POINT ( 'NONE',  ( -4.999999999999999112, 5.000000000000001776, -5.000000000000000000 ) ) ;
#310 = PLANE ( 'NONE',  #186 ) ;
#311 = EDGE_CURVE ( 'NONE', #85, #233, #206, .T. ) ;
#312 = FACE_OUTER_BOUND ( 'NONE', #229, .T. ) ;
#313 = DESIGN_CONTEXT ( 'detailed design', #65, 'design' ) ;
#314 = DATE_AND_TIME ( #43, #147 ) ;
#315 = VECTOR ( 'NONE', #280, 1000.000000000000000 ) ;
#316 = DIRECTION ( 'NONE',  ( -0.7071067811865475727, -0.7071067811865474617, 0.000000000000000000 ) ) ;
#317 = VECTOR ( 'NONE', #214, 1000.000000000000000 ) ;
#318 = PERSON_AND_ORGANIZATION ( #237, #308 ) ;
#319 = CC_DESIGN_PERSON_AND_ORGANIZATION_ASSIGNMENT ( #174, #224, ( #240 ) ) ;
#320 = CARTESIAN_POINT ( 'NONE',  ( 0.000000000000000000, 0.000000000000000000, 0.000000000000000000 ) ) ;
#321 = DIRECTION ( 'NONE',  ( -0.000000000000000000, 0.000000000000000000, 1.000000000000000000 ) ) ;
ENDSEC;
END-ISO-10303-21;
